ISO-10303-21;
HEADER;
FILE_DESCRIPTION (( 'STEP AP203' ),
    '1' );
FILE_NAME ('MgF2-MIRQWP-12.7-2940-M.STEP',
    '2020-12-23T01:29:02',
    ( '' ),
    ( '' ),
    'SwSTEP 2.0',
    'SolidWorks 2020',
    '' );
FILE_SCHEMA (( 'CONFIG_CONTROL_DESIGN' ));
ENDSEC;

DATA;
#1 = PRODUCT_RELATED_PRODUCT_CATEGORY ( 'detail', '', ( #155 ) ) ;
#2 = DATE_AND_TIME ( #125, #233 ) ;
#3 = LOCAL_TIME ( 9, 29, 2.000000000000000000, #5 ) ;
#4 = ORIENTED_EDGE ( 'NONE', *, *, #290, .F. ) ;
#5 = COORDINATED_UNIVERSAL_TIME_OFFSET ( 8, 0, .AHEAD. ) ;
#6 = ORIENTED_EDGE ( 'NONE', *, *, #208, .T. ) ;
#7 = EDGE_CURVE ( 'NONE', #84, #262, #250, .T. ) ;
#8 = ORIENTED_EDGE ( 'NONE', *, *, #167, .T. ) ;
#9 = DATE_AND_TIME ( #190, #53 ) ;
#10 = DIRECTION ( 'NONE',  ( -1.000000000000000000, 0.000000000000000000, -0.000000000000000000 ) ) ;
#11 = APPLICATION_CONTEXT ( 'configuration controlled 3d designs of mechanical parts and assemblies' ) ;
#12 = AXIS2_PLACEMENT_3D ( 'NONE', #76, #174, #315 ) ;
#13 = VECTOR ( 'NONE', #47, 1000.000000000000000 ) ;
#14 = CARTESIAN_POINT ( 'NONE',  ( -1.500000000000000444, 0.000000000000000000, 0.000000000000000000 ) ) ;
#15 = DIRECTION ( 'NONE',  ( 0.000000000000000000, 0.000000000000000000, -1.000000000000000000 ) ) ;
#16 = CARTESIAN_POINT ( 'NONE',  ( -2.999999999999999556, 0.000000000000000000, 0.000000000000000000 ) ) ;
#17 = CC_DESIGN_SECURITY_CLASSIFICATION ( #162, ( #320 ) ) ;
#18 = DIRECTION ( 'NONE',  ( -1.000000000000000000, -0.000000000000000000, -0.000000000000000000 ) ) ;
#19 = LINE ( 'NONE', #96, #13 ) ;
#20 = PRODUCT_DEFINITION ( 'UNKNOWN', '', #320, #318 ) ;
#21 = LINE ( 'NONE', #142, #293 ) ;
#22 = DIRECTION ( 'NONE',  ( 0.000000000000000000, 0.000000000000000000, 1.000000000000000000 ) ) ;
#23 = FACE_OUTER_BOUND ( 'NONE', #207, .T. ) ;
#24 = COORDINATED_UNIVERSAL_TIME_OFFSET ( 8, 0, .AHEAD. ) ;
#25 = CIRCLE ( 'NONE', #134, 6.349999999999999645 ) ;
#26 =( NAMED_UNIT ( * ) PLANE_ANGLE_UNIT ( ) SI_UNIT ( $, .RADIAN. ) );
#27 = VERTEX_POINT ( 'NONE', #159 ) ;
#28 = PERSON_AND_ORGANIZATION_ROLE ( 'design_supplier' ) ;
#29 = EDGE_LOOP ( 'NONE', ( #108, #152, #6, #8 ) ) ;
#30 = APPROVAL_STATUS ( 'not_yet_approved' ) ;
#31 = CIRCLE ( 'NONE', #74, 12.69999999999999929 ) ;
#32 = ORIENTED_EDGE ( 'NONE', *, *, #214, .F. ) ;
#33 = AXIS2_PLACEMENT_3D ( 'NONE', #170, #43, #255 ) ;
#34 = ORIENTED_EDGE ( 'NONE', *, *, #290, .T. ) ;
#35 = DIRECTION ( 'NONE',  ( 0.000000000000000000, 0.000000000000000000, -1.000000000000000000 ) ) ;
#36 = DIRECTION ( 'NONE',  ( 0.000000000000000000, 0.000000000000000000, 1.000000000000000000 ) ) ;
#37 = LOCAL_TIME ( 9, 29, 2.000000000000000000, #285 ) ;
#38 = CARTESIAN_POINT ( 'NONE',  ( -2.999999999999999556, 0.000000000000000000, 0.000000000000000000 ) ) ;
#39 = APPROVAL ( #80, 'UNSPECIFIED' ) ;
#40 = VERTEX_POINT ( 'NONE', #246 ) ;
#41 = CARTESIAN_POINT ( 'NONE',  ( -1.614212418857619014, 0.000000000000000000, 0.000000000000000000 ) ) ;
#42 = AXIS2_PLACEMENT_3D ( 'NONE', #241, #104, #55 ) ;
#43 = DIRECTION ( 'NONE',  ( -1.000000000000000000, -0.000000000000000000, -0.000000000000000000 ) ) ;
#44 = PLANE ( 'NONE',  #12 ) ;
#45 = CARTESIAN_POINT ( 'NONE',  ( -1.614212418857619014, 7.776507174585692163E-16, -6.349999999999999645 ) ) ;
#46 = ADVANCED_FACE ( 'NONE', ( #62 ), #300, .F. ) ;
#47 = DIRECTION ( 'NONE',  ( -1.000000000000000000, -0.000000000000000000, -0.000000000000000000 ) ) ;
#48 = CARTESIAN_POINT ( 'NONE',  ( -1.614212418857619014, 0.000000000000000000, 6.349999999999999645 ) ) ;
#49 = APPROVAL_ROLE ( '' ) ;
#50 = ORIENTED_EDGE ( 'NONE', *, *, #78, .F. ) ;
#51 = AXIS2_PLACEMENT_3D ( 'NONE', #110, #109, #88 ) ;
#52 = DIRECTION ( 'NONE',  ( 0.000000000000000000, 0.000000000000000000, 1.000000000000000000 ) ) ;
#53 = LOCAL_TIME ( 9, 29, 2.000000000000000000, #325 ) ;
#54 = EDGE_LOOP ( 'NONE', ( #308, #284, #83, #4 ) ) ;
#55 = DIRECTION ( 'NONE',  ( 0.000000000000000000, 0.000000000000000000, -1.000000000000000000 ) ) ;
#56 = ORIENTED_EDGE ( 'NONE', *, *, #257, .T. ) ;
#57 = APPLICATION_PROTOCOL_DEFINITION ( 'international standard', 'config_control_design', 1994, #232 ) ;
#58 = ORIENTED_EDGE ( 'NONE', *, *, #120, .T. ) ;
#59 = CC_DESIGN_PERSON_AND_ORGANIZATION_ASSIGNMENT ( #237, #206, ( #162 ) ) ;
#60 = EDGE_LOOP ( 'NONE', ( #223, #132, #316, #81 ) ) ;
#61 = AXIS2_PLACEMENT_3D ( 'NONE', #145, #18, #22 ) ;
#62 = FACE_OUTER_BOUND ( 'NONE', #235, .T. ) ;
#63 = AXIS2_PLACEMENT_3D ( 'NONE', #271, #193, #15 ) ;
#64 = EDGE_LOOP ( 'NONE', ( #178, #313 ) ) ;
#65 = ADVANCED_FACE ( 'NONE', ( #68 ), #248, .T. ) ;
#66 = AXIS2_PLACEMENT_3D ( 'NONE', #302, #71, #282 ) ;
#67 = ORIENTED_EDGE ( 'NONE', *, *, #259, .T. ) ;
#68 = FACE_OUTER_BOUND ( 'NONE', #54, .T. ) ;
#69 = DIRECTION ( 'NONE',  ( 0.000000000000000000, 0.000000000000000000, 1.000000000000000000 ) ) ;
#70 = AXIS2_PLACEMENT_3D ( 'NONE', #118, #278, #121 ) ;
#71 = DIRECTION ( 'NONE',  ( -1.000000000000000000, -0.000000000000000000, -0.000000000000000000 ) ) ;
#72 = DIRECTION ( 'NONE',  ( -1.000000000000000000, -0.000000000000000000, -0.000000000000000000 ) ) ;
#73 = CARTESIAN_POINT ( 'NONE',  ( -1.614212418857619014, 0.000000000000000000, 12.69999999999999929 ) ) ;
#74 = AXIS2_PLACEMENT_3D ( 'NONE', #294, #140, #187 ) ;
#75 = CC_DESIGN_DATE_AND_TIME_ASSIGNMENT ( #244, #222, ( #162 ) ) ;
#76 = CARTESIAN_POINT ( 'NONE',  ( 3.000000000000000000, 12.69999999999999929, 0.000000000000000000 ) ) ;
#77 = COORDINATED_UNIVERSAL_TIME_OFFSET ( 8, 0, .AHEAD. ) ;
#78 = EDGE_CURVE ( 'NONE', #216, #176, #25, .T. ) ;
#79 = ORIENTED_EDGE ( 'NONE', *, *, #247, .T. ) ;
#80 = APPROVAL_STATUS ( 'not_yet_approved' ) ;
#81 = ORIENTED_EDGE ( 'NONE', *, *, #208, .F. ) ;
#82 = CARTESIAN_POINT ( 'NONE',  ( 0.000000000000000000, 0.000000000000000000, 0.000000000000000000 ) ) ;
#83 = ORIENTED_EDGE ( 'NONE', *, *, #259, .F. ) ;
#84 = VERTEX_POINT ( 'NONE', #273 ) ;
#85 = DIRECTION ( 'NONE',  ( -1.000000000000000000, -0.000000000000000000, -0.000000000000000000 ) ) ;
#86 = CARTESIAN_POINT ( 'NONE',  ( 1.500000000000000444, 6.349999999999999645, 0.000000000000000000 ) ) ;
#87 = EDGE_CURVE ( 'NONE', #176, #216, #239, .T. ) ;
#88 = DIRECTION ( 'NONE',  ( 0.000000000000000000, 0.000000000000000000, 1.000000000000000000 ) ) ;
#89 = CARTESIAN_POINT ( 'NONE',  ( 3.000000000000000888, 7.776507174585692163E-16, -6.349999999999999645 ) ) ;
#90 = PERSON_AND_ORGANIZATION ( #256, #326 ) ;
#91 = EDGE_LOOP ( 'NONE', ( #245, #236, #34, #181 ) ) ;
#92 = FACE_OUTER_BOUND ( 'NONE', #91, .T. ) ;
#93 = DIRECTION ( 'NONE',  ( 0.000000000000000000, 0.000000000000000000, 1.000000000000000000 ) ) ;
#94 = AXIS2_PLACEMENT_3D ( 'NONE', #38, #138, #324 ) ;
#95 = DIRECTION ( 'NONE',  ( 0.000000000000000000, 0.000000000000000000, 1.000000000000000000 ) ) ;
#96 = CARTESIAN_POINT ( 'NONE',  ( -1.614212418857619014, 0.000000000000000000, 6.349999999999999645 ) ) ;
#97 = ADVANCED_FACE ( 'NONE', ( #219 ), #274, .F. ) ;
#98 = CARTESIAN_POINT ( 'NONE',  ( -1.614212418857619014, 0.000000000000000000, 0.000000000000000000 ) ) ;
#99 = CIRCLE ( 'NONE', #292, 6.349999999999999645 ) ;
#100 = SECURITY_CLASSIFICATION_LEVEL ( 'unclassified' ) ;
#101 = APPROVAL_PERSON_ORGANIZATION ( #90, #164, #158 ) ;
#102 = ORIENTED_EDGE ( 'NONE', *, *, #189, .F. ) ;
#103 = EDGE_CURVE ( 'NONE', #210, #27, #31, .T. ) ;
#104 = DIRECTION ( 'NONE',  ( 1.000000000000000000, 0.000000000000000000, 0.000000000000000000 ) ) ;
#105 = DATE_AND_TIME ( #184, #3 ) ;
#106 = EDGE_LOOP ( 'NONE', ( #243, #287 ) ) ;
#107 = PERSON_AND_ORGANIZATION_ROLE ( 'design_owner' ) ;
#108 = ORIENTED_EDGE ( 'NONE', *, *, #279, .F. ) ;
#109 = DIRECTION ( 'NONE',  ( -1.000000000000000000, -0.000000000000000000, -0.000000000000000000 ) ) ;
#110 = CARTESIAN_POINT ( 'NONE',  ( -1.614212418857619014, 0.000000000000000000, 0.000000000000000000 ) ) ;
#111 = VECTOR ( 'NONE', #144, 1000.000000000000000 ) ;
#112 = DIRECTION ( 'NONE',  ( -1.000000000000000000, -0.000000000000000000, -0.000000000000000000 ) ) ;
#113 = EDGE_CURVE ( 'NONE', #40, #264, #267, .T. ) ;
#114 = DIRECTION ( 'NONE',  ( -1.000000000000000000, -0.000000000000000000, -0.000000000000000000 ) ) ;
#115 = CIRCLE ( 'NONE', #70, 12.69999999999999929 ) ;
#116 = DIRECTION ( 'NONE',  ( 1.000000000000000000, 0.000000000000000000, 0.000000000000000000 ) ) ;
#117 = FACE_BOUND ( 'NONE', #323, .T. ) ;
#118 = CARTESIAN_POINT ( 'NONE',  ( -3.000000000000000000, 0.000000000000000000, 0.000000000000000000 ) ) ;
#119 = CYLINDRICAL_SURFACE ( 'NONE', #33, 6.349999999999999645 ) ;
#120 = EDGE_CURVE ( 'NONE', #176, #264, #270, .T. ) ;
#121 = DIRECTION ( 'NONE',  ( 0.000000000000000000, 0.000000000000000000, 1.000000000000000000 ) ) ;
#122 = PERSON_AND_ORGANIZATION_ROLE ( 'creator' ) ;
#123 = ORIENTED_EDGE ( 'NONE', *, *, #214, .T. ) ;
#124 = PERSON_AND_ORGANIZATION ( #256, #326 ) ;
#125 = CALENDAR_DATE ( 2020, 23, 12 ) ;
#126 = AXIS2_PLACEMENT_3D ( 'NONE', #163, #296, #319 ) ;
#127 = PERSON_AND_ORGANIZATION ( #256, #326 ) ;
#128 = CC_DESIGN_PERSON_AND_ORGANIZATION_ASSIGNMENT ( #124, #28, ( #320 ) ) ;
#129 = ORIENTED_EDGE ( 'NONE', *, *, #103, .F. ) ;
#130 = ORIENTED_EDGE ( 'NONE', *, *, #113, .F. ) ;
#131 = APPROVAL_STATUS ( 'not_yet_approved' ) ;
#132 = ORIENTED_EDGE ( 'NONE', *, *, #279, .T. ) ;
#133 = CC_DESIGN_PERSON_AND_ORGANIZATION_ASSIGNMENT ( #127, #122, ( #320 ) ) ;
#134 = AXIS2_PLACEMENT_3D ( 'NONE', #160, #165, #36 ) ;
#135 = CARTESIAN_POINT ( 'NONE',  ( 1.500000000000000888, 0.000000000000000000, 0.000000000000000000 ) ) ;
#136 = AXIS2_PLACEMENT_3D ( 'NONE', #191, #298, #249 ) ;
#137 = SHAPE_DEFINITION_REPRESENTATION ( #317, #314 ) ;
#138 = DIRECTION ( 'NONE',  ( -1.000000000000000000, -0.000000000000000000, -0.000000000000000000 ) ) ;
#139 = EDGE_CURVE ( 'NONE', #262, #84, #99, .T. ) ;
#140 = DIRECTION ( 'NONE',  ( -1.000000000000000000, -0.000000000000000000, -0.000000000000000000 ) ) ;
#141 = AXIS2_PLACEMENT_3D ( 'NONE', #330, #116, #225 ) ;
#142 = CARTESIAN_POINT ( 'NONE',  ( -1.614212418857619014, 1.555301434917138433E-15, -12.69999999999999929 ) ) ;
#143 = DIRECTION ( 'NONE',  ( 0.000000000000000000, 0.000000000000000000, 1.000000000000000000 ) ) ;
#144 = DIRECTION ( 'NONE',  ( -1.000000000000000000, -0.000000000000000000, -0.000000000000000000 ) ) ;
#145 = CARTESIAN_POINT ( 'NONE',  ( 1.500000000000000888, 0.000000000000000000, 0.000000000000000000 ) ) ;
#146 = CALENDAR_DATE ( 2020, 23, 12 ) ;
#147 = FACE_OUTER_BOUND ( 'NONE', #64, .T. ) ;
#148 = VERTEX_POINT ( 'NONE', #220 ) ;
#149 = LOCAL_TIME ( 9, 29, 2.000000000000000000, #77 ) ;
#150 = DATE_TIME_ROLE ( 'creation_date' ) ;
#151 = AXIS2_PLACEMENT_3D ( 'NONE', #195, #301, #69 ) ;
#152 = ORIENTED_EDGE ( 'NONE', *, *, #139, .T. ) ;
#153 =( LENGTH_UNIT ( ) NAMED_UNIT ( * ) SI_UNIT ( .MILLI., .METRE. ) );
#154 = ORIENTED_EDGE ( 'NONE', *, *, #113, .T. ) ;
#155 = PRODUCT ( 'MgF2-MIRQWP-12.7-2940-M', 'MgF2-MIRQWP-12.7-2940-M', '', ( #309 ) ) ;
#156 = APPROVAL_DATE_TIME ( #105, #39 ) ;
#157 = VERTEX_POINT ( 'NONE', #272 ) ;
#158 = APPROVAL_ROLE ( '' ) ;
#159 = CARTESIAN_POINT ( 'NONE',  ( 3.000000000000000000, 0.000000000000000000, 12.69999999999999929 ) ) ;
#160 = CARTESIAN_POINT ( 'NONE',  ( 3.000000000000000888, 0.000000000000000000, 0.000000000000000000 ) ) ;
#161 = CARTESIAN_POINT ( 'NONE',  ( -1.614212418857619014, 7.776507174585692163E-16, -6.349999999999999645 ) ) ;
#162 = SECURITY_CLASSIFICATION ( '', '', #100 ) ;
#163 = CARTESIAN_POINT ( 'NONE',  ( 3.000000000000000888, 0.000000000000000000, 0.000000000000000000 ) ) ;
#164 = APPROVAL ( #131, 'UNSPECIFIED' ) ;
#165 = DIRECTION ( 'NONE',  ( -1.000000000000000000, -0.000000000000000000, -0.000000000000000000 ) ) ;
#166 = LINE ( 'NONE', #48, #228 ) ;
#167 = EDGE_CURVE ( 'NONE', #157, #148, #297, .T. ) ;
#168 = CC_DESIGN_APPROVAL ( #164, ( #162 ) ) ;
#169 = FACE_OUTER_BOUND ( 'NONE', #183, .T. ) ;
#170 = CARTESIAN_POINT ( 'NONE',  ( -1.614212418857619014, 0.000000000000000000, 0.000000000000000000 ) ) ;
#171 = FACE_BOUND ( 'NONE', #106, .T. ) ;
#172 = AXIS2_PLACEMENT_3D ( 'NONE', #41, #85, #186 ) ;
#173 = CC_DESIGN_DATE_AND_TIME_ASSIGNMENT ( #266, #150, ( #20 ) ) ;
#174 = DIRECTION ( 'NONE',  ( -1.000000000000000000, 0.000000000000000000, -0.000000000000000000 ) ) ;
#175 = CALENDAR_DATE ( 2020, 23, 12 ) ;
#176 = VERTEX_POINT ( 'NONE', #89 ) ;
#177 = PERSON_AND_ORGANIZATION_ROLE ( 'creator' ) ;
#178 = ORIENTED_EDGE ( 'NONE', *, *, #7, .F. ) ;
#179 = APPROVAL_PERSON_ORGANIZATION ( #263, #39, #311 ) ;
#180 = APPLICATION_PROTOCOL_DEFINITION ( 'international standard', 'config_control_design', 1994, #11 ) ;
#181 = ORIENTED_EDGE ( 'NONE', *, *, #257, .F. ) ;
#182 = EDGE_CURVE ( 'NONE', #27, #210, #204, .T. ) ;
#183 = EDGE_LOOP ( 'NONE', ( #289, #129 ) ) ;
#184 = CALENDAR_DATE ( 2020, 23, 12 ) ;
#185 = CIRCLE ( 'NONE', #281, 12.69999999999999929 ) ;
#186 = DIRECTION ( 'NONE',  ( 0.000000000000000000, 0.000000000000000000, 1.000000000000000000 ) ) ;
#187 = DIRECTION ( 'NONE',  ( 0.000000000000000000, 0.000000000000000000, 1.000000000000000000 ) ) ;
#188 = DIRECTION ( 'NONE',  ( -0.000000000000000000, 0.000000000000000000, 1.000000000000000000 ) ) ;
#189 = EDGE_CURVE ( 'NONE', #148, #157, #331, .T. ) ;
#190 = CALENDAR_DATE ( 2020, 23, 12 ) ;
#191 = CARTESIAN_POINT ( 'NONE',  ( 3.000000000000000000, 0.000000000000000000, 0.000000000000000000 ) ) ;
#192 = APPROVAL ( #30, 'UNSPECIFIED' ) ;
#193 = DIRECTION ( 'NONE',  ( 1.000000000000000000, 0.000000000000000000, 0.000000000000000000 ) ) ;
#194 = ADVANCED_FACE ( 'NONE', ( #231 ), #200, .F. ) ;
#195 = CARTESIAN_POINT ( 'NONE',  ( -1.614212418857619014, 0.000000000000000000, 0.000000000000000000 ) ) ;
#196 = AXIS2_PLACEMENT_3D ( 'NONE', #86, #10, #188 ) ;
#197 = CYLINDRICAL_SURFACE ( 'NONE', #66, 6.349999999999999645 ) ;
#198 = CC_DESIGN_PERSON_AND_ORGANIZATION_ASSIGNMENT ( #234, #107, ( #155 ) ) ;
#199 = AXIS2_PLACEMENT_3D ( 'NONE', #82, #52, #291 ) ;
#200 = CYLINDRICAL_SURFACE ( 'NONE', #276, 6.349999999999999645 ) ;
#201 = DIRECTION ( 'NONE',  ( -1.000000000000000000, -0.000000000000000000, -0.000000000000000000 ) ) ;
#202 = LINE ( 'NONE', #45, #111 ) ;
#203 = VECTOR ( 'NONE', #112, 1000.000000000000000 ) ;
#204 = CIRCLE ( 'NONE', #136, 12.69999999999999929 ) ;
#205 = ADVANCED_FACE ( 'NONE', ( #226 ), #119, .F. ) ;
#206 = PERSON_AND_ORGANIZATION_ROLE ( 'classification_officer' ) ;
#207 = EDGE_LOOP ( 'NONE', ( #67, #56 ) ) ;
#208 = EDGE_CURVE ( 'NONE', #84, #157, #19, .T. ) ;
#209 = PERSON_AND_ORGANIZATION ( #256, #326 ) ;
#210 = VERTEX_POINT ( 'NONE', #303 ) ;
#211 = CLOSED_SHELL ( 'NONE', ( #65, #194, #283, #46, #97, #205, #254, #299, #328, #334 ) ) ;
#212 = AXIS2_PLACEMENT_3D ( 'NONE', #16, #114, #143 ) ;
#213 = ORIENTED_EDGE ( 'NONE', *, *, #120, .F. ) ;
#214 = EDGE_CURVE ( 'NONE', #216, #40, #166, .T. ) ;
#215 =( NAMED_UNIT ( * ) SI_UNIT ( $, .STERADIAN. ) SOLID_ANGLE_UNIT ( ) );
#216 = VERTEX_POINT ( 'NONE', #251 ) ;
#217 = DIRECTION ( 'NONE',  ( 0.000000000000000000, 0.000000000000000000, 1.000000000000000000 ) ) ;
#218 = CC_DESIGN_APPROVAL ( #39, ( #20 ) ) ;
#219 = FACE_OUTER_BOUND ( 'NONE', #269, .T. ) ;
#220 = CARTESIAN_POINT ( 'NONE',  ( -2.999999999999999556, 7.776507174585692163E-16, -6.349999999999999645 ) ) ;
#221 = DIRECTION ( 'NONE',  ( 1.000000000000000000, 0.000000000000000000, 0.000000000000000000 ) ) ;
#222 = DATE_TIME_ROLE ( 'classification_date' ) ;
#223 = ORIENTED_EDGE ( 'NONE', *, *, #7, .T. ) ;
#224 =( GEOMETRIC_REPRESENTATION_CONTEXT ( 3 ) GLOBAL_UNCERTAINTY_ASSIGNED_CONTEXT ( ( #265 ) ) GLOBAL_UNIT_ASSIGNED_CONTEXT ( ( #153, #26, #215 ) ) REPRESENTATION_CONTEXT ( 'NONE', 'WORKASPACE' ) );
#225 = DIRECTION ( 'NONE',  ( 0.000000000000000000, 0.000000000000000000, -1.000000000000000000 ) ) ;
#226 = FACE_OUTER_BOUND ( 'NONE', #29, .T. ) ;
#227 = CARTESIAN_POINT ( 'NONE',  ( 1.500000000000000888, 7.776507174585692163E-16, -6.349999999999999645 ) ) ;
#228 = VECTOR ( 'NONE', #275, 1000.000000000000000 ) ;
#229 = LINE ( 'NONE', #73, #312 ) ;
#230 = MANIFOLD_SOLID_BREP ( 'Ðý×', #211 ) ;
#231 = FACE_OUTER_BOUND ( 'NONE', #60, .T. ) ;
#232 = APPLICATION_CONTEXT ( 'configuration controlled 3d designs of mechanical parts and assemblies' ) ;
#233 = LOCAL_TIME ( 9, 29, 2.000000000000000000, #24 ) ;
#234 = PERSON_AND_ORGANIZATION ( #256, #326 ) ;
#235 = EDGE_LOOP ( 'NONE', ( #130, #260 ) ) ;
#236 = ORIENTED_EDGE ( 'NONE', *, *, #103, .T. ) ;
#237 = PERSON_AND_ORGANIZATION ( #256, #326 ) ;
#238 = ORIENTED_EDGE ( 'NONE', *, *, #167, .F. ) ;
#239 = CIRCLE ( 'NONE', #126, 6.349999999999999645 ) ;
#240 = CC_DESIGN_APPROVAL ( #192, ( #320 ) ) ;
#241 = CARTESIAN_POINT ( 'NONE',  ( -1.500000000000000444, 6.349999999999999645, 0.000000000000000000 ) ) ;
#242 = CC_DESIGN_PERSON_AND_ORGANIZATION_ASSIGNMENT ( #209, #177, ( #20 ) ) ;
#243 = ORIENTED_EDGE ( 'NONE', *, *, #78, .T. ) ;
#244 = DATE_AND_TIME ( #175, #149 ) ;
#245 = ORIENTED_EDGE ( 'NONE', *, *, #268, .F. ) ;
#246 = CARTESIAN_POINT ( 'NONE',  ( 1.500000000000000888, 0.000000000000000000, 6.349999999999999645 ) ) ;
#247 = EDGE_CURVE ( 'NONE', #264, #40, #332, .T. ) ;
#248 = CYLINDRICAL_SURFACE ( 'NONE', #51, 12.69999999999999929 ) ;
#249 = DIRECTION ( 'NONE',  ( 0.000000000000000000, 0.000000000000000000, 1.000000000000000000 ) ) ;
#250 = CIRCLE ( 'NONE', #63, 6.349999999999999645 ) ;
#251 = CARTESIAN_POINT ( 'NONE',  ( 3.000000000000000888, 0.000000000000000000, 6.349999999999999645 ) ) ;
#252 = FACE_OUTER_BOUND ( 'NONE', #327, .T. ) ;
#253 = CARTESIAN_POINT ( 'NONE',  ( -1.500000000000000444, 7.776507174585692163E-16, -6.349999999999999645 ) ) ;
#254 = ADVANCED_FACE ( 'NONE', ( #117, #23 ), #277, .F. ) ;
#255 = DIRECTION ( 'NONE',  ( 0.000000000000000000, 0.000000000000000000, 1.000000000000000000 ) ) ;
#256 = PERSON ( 'UNSPECIFIED', 'UNSPECIFIED', 'UNSPECIFIED', ('UNSPECIFIED'), ('UNSPECIFIED'), ('UNSPECIFIED') ) ;
#257 = EDGE_CURVE ( 'NONE', #310, #286, #185, .T. ) ;
#258 = PERSON_AND_ORGANIZATION ( #256, #326 ) ;
#259 = EDGE_CURVE ( 'NONE', #286, #310, #115, .T. ) ;
#260 = ORIENTED_EDGE ( 'NONE', *, *, #247, .F. ) ;
#261 = APPROVAL_DATE_TIME ( #2, #192 ) ;
#262 = VERTEX_POINT ( 'NONE', #253 ) ;
#263 = PERSON_AND_ORGANIZATION ( #256, #326 ) ;
#264 = VERTEX_POINT ( 'NONE', #227 ) ;
#265 = UNCERTAINTY_MEASURE_WITH_UNIT (LENGTH_MEASURE( 1.000000000000000082E-05 ), #153, 'distance_accuracy_value', 'NONE');
#266 = DATE_AND_TIME ( #146, #37 ) ;
#267 = CIRCLE ( 'NONE', #305, 6.349999999999999645 ) ;
#268 = EDGE_CURVE ( 'NONE', #210, #310, #21, .T. ) ;
#269 = EDGE_LOOP ( 'NONE', ( #213, #50, #123, #154 ) ) ;
#270 = LINE ( 'NONE', #161, #203 ) ;
#271 = CARTESIAN_POINT ( 'NONE',  ( -1.500000000000000444, 0.000000000000000000, 0.000000000000000000 ) ) ;
#272 = CARTESIAN_POINT ( 'NONE',  ( -2.999999999999999556, 0.000000000000000000, 6.349999999999999645 ) ) ;
#273 = CARTESIAN_POINT ( 'NONE',  ( -1.500000000000000444, 0.000000000000000000, 6.349999999999999645 ) ) ;
#274 = CYLINDRICAL_SURFACE ( 'NONE', #172, 6.349999999999999645 ) ;
#275 = DIRECTION ( 'NONE',  ( -1.000000000000000000, -0.000000000000000000, -0.000000000000000000 ) ) ;
#276 = AXIS2_PLACEMENT_3D ( 'NONE', #98, #280, #95 ) ;
#277 = PLANE ( 'NONE',  #141 ) ;
#278 = DIRECTION ( 'NONE',  ( -1.000000000000000000, -0.000000000000000000, -0.000000000000000000 ) ) ;
#279 = EDGE_CURVE ( 'NONE', #262, #148, #202, .T. ) ;
#280 = DIRECTION ( 'NONE',  ( -1.000000000000000000, -0.000000000000000000, -0.000000000000000000 ) ) ;
#281 = AXIS2_PLACEMENT_3D ( 'NONE', #329, #72, #93 ) ;
#282 = DIRECTION ( 'NONE',  ( 0.000000000000000000, 0.000000000000000000, 1.000000000000000000 ) ) ;
#283 = ADVANCED_FACE ( 'NONE', ( #252 ), #197, .F. ) ;
#284 = ORIENTED_EDGE ( 'NONE', *, *, #268, .T. ) ;
#285 = COORDINATED_UNIVERSAL_TIME_OFFSET ( 8, 0, .AHEAD. ) ;
#286 = VERTEX_POINT ( 'NONE', #333 ) ;
#287 = ORIENTED_EDGE ( 'NONE', *, *, #87, .T. ) ;
#288 = PLANE ( 'NONE',  #42 ) ;
#289 = ORIENTED_EDGE ( 'NONE', *, *, #182, .F. ) ;
#290 = EDGE_CURVE ( 'NONE', #27, #286, #229, .T. ) ;
#291 = DIRECTION ( 'NONE',  ( 1.000000000000000000, 0.000000000000000000, 0.000000000000000000 ) ) ;
#292 = AXIS2_PLACEMENT_3D ( 'NONE', #14, #221, #35 ) ;
#293 = VECTOR ( 'NONE', #335, 1000.000000000000000 ) ;
#294 = CARTESIAN_POINT ( 'NONE',  ( 3.000000000000000000, 0.000000000000000000, 0.000000000000000000 ) ) ;
#295 = ORIENTED_EDGE ( 'NONE', *, *, #87, .F. ) ;
#296 = DIRECTION ( 'NONE',  ( -1.000000000000000000, -0.000000000000000000, -0.000000000000000000 ) ) ;
#297 = CIRCLE ( 'NONE', #94, 6.349999999999999645 ) ;
#298 = DIRECTION ( 'NONE',  ( -1.000000000000000000, -0.000000000000000000, -0.000000000000000000 ) ) ;
#299 = ADVANCED_FACE ( 'NONE', ( #92 ), #306, .T. ) ;
#300 = PLANE ( 'NONE',  #196 ) ;
#301 = DIRECTION ( 'NONE',  ( -1.000000000000000000, -0.000000000000000000, -0.000000000000000000 ) ) ;
#302 = CARTESIAN_POINT ( 'NONE',  ( -1.614212418857619014, 0.000000000000000000, 0.000000000000000000 ) ) ;
#303 = CARTESIAN_POINT ( 'NONE',  ( 3.000000000000000000, 1.555301434917138433E-15, -12.69999999999999929 ) ) ;
#304 = CARTESIAN_POINT ( 'NONE',  ( -3.000000000000000000, 1.555301434917138433E-15, -12.69999999999999929 ) ) ;
#305 = AXIS2_PLACEMENT_3D ( 'NONE', #135, #321, #217 ) ;
#306 = CYLINDRICAL_SURFACE ( 'NONE', #151, 12.69999999999999929 ) ;
#307 = APPROVAL_PERSON_ORGANIZATION ( #258, #192, #49 ) ;
#308 = ORIENTED_EDGE ( 'NONE', *, *, #182, .T. ) ;
#309 = MECHANICAL_CONTEXT ( 'NONE', #232, 'mechanical' ) ;
#310 = VERTEX_POINT ( 'NONE', #304 ) ;
#311 = APPROVAL_ROLE ( '' ) ;
#312 = VECTOR ( 'NONE', #201, 1000.000000000000000 ) ;
#313 = ORIENTED_EDGE ( 'NONE', *, *, #139, .F. ) ;
#314 = ADVANCED_BREP_SHAPE_REPRESENTATION ( 'MgF2-MIRQWP-12.7-2940-M', ( #230, #199 ), #224 ) ;
#315 = DIRECTION ( 'NONE',  ( -0.000000000000000000, 0.000000000000000000, 1.000000000000000000 ) ) ;
#316 = ORIENTED_EDGE ( 'NONE', *, *, #189, .T. ) ;
#317 = PRODUCT_DEFINITION_SHAPE ( 'NONE', 'NONE',  #20 ) ;
#318 = DESIGN_CONTEXT ( 'detailed design', #11, 'design' ) ;
#319 = DIRECTION ( 'NONE',  ( 0.000000000000000000, 0.000000000000000000, 1.000000000000000000 ) ) ;
#320 = PRODUCT_DEFINITION_FORMATION_WITH_SPECIFIED_SOURCE ( 'ANY', '', #155, .NOT_KNOWN. ) ;
#321 = DIRECTION ( 'NONE',  ( -1.000000000000000000, -0.000000000000000000, -0.000000000000000000 ) ) ;
#322 = APPROVAL_DATE_TIME ( #9, #164 ) ;
#323 = EDGE_LOOP ( 'NONE', ( #238, #102 ) ) ;
#324 = DIRECTION ( 'NONE',  ( 0.000000000000000000, 0.000000000000000000, 1.000000000000000000 ) ) ;
#325 = COORDINATED_UNIVERSAL_TIME_OFFSET ( 8, 0, .AHEAD. ) ;
#326 = ORGANIZATION ( 'UNSPECIFIED', 'UNSPECIFIED', '' ) ;
#327 = EDGE_LOOP ( 'NONE', ( #295, #58, #79, #32 ) ) ;
#328 = ADVANCED_FACE ( 'NONE', ( #169, #171 ), #44, .F. ) ;
#329 = CARTESIAN_POINT ( 'NONE',  ( -3.000000000000000000, 0.000000000000000000, 0.000000000000000000 ) ) ;
#330 = CARTESIAN_POINT ( 'NONE',  ( -3.000000000000000000, 6.349999999999999645, 0.000000000000000000 ) ) ;
#331 = CIRCLE ( 'NONE', #212, 6.349999999999999645 ) ;
#332 = CIRCLE ( 'NONE', #61, 6.349999999999999645 ) ;
#333 = CARTESIAN_POINT ( 'NONE',  ( -3.000000000000000000, 0.000000000000000000, 12.69999999999999929 ) ) ;
#334 = ADVANCED_FACE ( 'NONE', ( #147 ), #288, .F. ) ;
#335 = DIRECTION ( 'NONE',  ( -1.000000000000000000, -0.000000000000000000, -0.000000000000000000 ) ) ;
ENDSEC;
END-ISO-10303-21;
